ISO-10303-21;
HEADER;
/* Generated by software containing ST-Developer
 * from STEP Tools, Inc. (www.steptools.com) 
 */

FILE_DESCRIPTION(
/* description */ (''),
/* implementation_level */ '2;1');

FILE_NAME(
/* name */ 
'C:\\leap_cad\\LEAP_Hand\\model\\release_assets\\stp\\dip_spacer.stp',
/* time_stamp */ '2024-12-21T19:38:00-05:00',
/* author */ ('Kenny'),
/* organization */ (''),
/* preprocessor_version */ 'ST-DEVELOPER v18.1',
/* originating_system */ 'Autodesk Inventor 2021',
/* authorisation */ '');

FILE_SCHEMA (('AUTOMOTIVE_DESIGN { 1 0 10303 214 3 1 1 }'));
ENDSEC;

DATA;
#10=MECHANICAL_DESIGN_GEOMETRIC_PRESENTATION_REPRESENTATION('',(#13),#581);
#11=SHAPE_REPRESENTATION_RELATIONSHIP('SRR','None',#588,#12);
#12=ADVANCED_BREP_SHAPE_REPRESENTATION('',(#14),#580);
#13=STYLED_ITEM('',(#597),#14);
#14=MANIFOLD_SOLID_BREP('Solid1',#331);
#15=FACE_BOUND('',#60,.T.);
#16=FACE_BOUND('',#61,.T.);
#17=FACE_BOUND('',#62,.T.);
#18=FACE_BOUND('',#63,.T.);
#19=FACE_BOUND('',#64,.T.);
#20=FACE_BOUND('',#65,.T.);
#21=FACE_BOUND('',#66,.T.);
#22=FACE_BOUND('',#67,.T.);
#23=FACE_BOUND('',#69,.T.);
#24=FACE_BOUND('',#70,.T.);
#25=FACE_BOUND('',#71,.T.);
#26=FACE_BOUND('',#72,.T.);
#27=FACE_BOUND('',#73,.T.);
#28=FACE_BOUND('',#74,.T.);
#29=FACE_BOUND('',#75,.T.);
#30=FACE_BOUND('',#76,.T.);
#31=PLANE('',#383);
#32=PLANE('',#384);
#33=PLANE('',#385);
#34=PLANE('',#386);
#35=PLANE('',#387);
#36=PLANE('',#388);
#37=FACE_OUTER_BOUND('',#51,.T.);
#38=FACE_OUTER_BOUND('',#52,.T.);
#39=FACE_OUTER_BOUND('',#53,.T.);
#40=FACE_OUTER_BOUND('',#54,.T.);
#41=FACE_OUTER_BOUND('',#55,.T.);
#42=FACE_OUTER_BOUND('',#56,.T.);
#43=FACE_OUTER_BOUND('',#57,.T.);
#44=FACE_OUTER_BOUND('',#58,.T.);
#45=FACE_OUTER_BOUND('',#59,.T.);
#46=FACE_OUTER_BOUND('',#68,.T.);
#47=FACE_OUTER_BOUND('',#77,.T.);
#48=FACE_OUTER_BOUND('',#78,.T.);
#49=FACE_OUTER_BOUND('',#79,.T.);
#50=FACE_OUTER_BOUND('',#80,.T.);
#51=EDGE_LOOP('',(#221,#222,#223,#224,#225));
#52=EDGE_LOOP('',(#226,#227,#228,#229,#230));
#53=EDGE_LOOP('',(#231,#232,#233,#234,#235));
#54=EDGE_LOOP('',(#236,#237,#238,#239,#240));
#55=EDGE_LOOP('',(#241,#242,#243,#244,#245));
#56=EDGE_LOOP('',(#246,#247,#248,#249,#250));
#57=EDGE_LOOP('',(#251,#252,#253,#254,#255));
#58=EDGE_LOOP('',(#256,#257,#258,#259,#260));
#59=EDGE_LOOP('',(#261,#262,#263,#264));
#60=EDGE_LOOP('',(#265));
#61=EDGE_LOOP('',(#266));
#62=EDGE_LOOP('',(#267));
#63=EDGE_LOOP('',(#268));
#64=EDGE_LOOP('',(#269));
#65=EDGE_LOOP('',(#270));
#66=EDGE_LOOP('',(#271));
#67=EDGE_LOOP('',(#272));
#68=EDGE_LOOP('',(#273,#274,#275,#276));
#69=EDGE_LOOP('',(#277,#278));
#70=EDGE_LOOP('',(#279,#280));
#71=EDGE_LOOP('',(#281,#282));
#72=EDGE_LOOP('',(#283,#284));
#73=EDGE_LOOP('',(#285,#286));
#74=EDGE_LOOP('',(#287,#288));
#75=EDGE_LOOP('',(#289,#290));
#76=EDGE_LOOP('',(#291,#292));
#77=EDGE_LOOP('',(#293,#294,#295,#296));
#78=EDGE_LOOP('',(#297,#298,#299,#300));
#79=EDGE_LOOP('',(#301,#302,#303,#304));
#80=EDGE_LOOP('',(#305,#306,#307,#308));
#81=LINE('',#494,#101);
#82=LINE('',#502,#102);
#83=LINE('',#510,#103);
#84=LINE('',#518,#104);
#85=LINE('',#526,#105);
#86=LINE('',#534,#106);
#87=LINE('',#542,#107);
#88=LINE('',#550,#108);
#89=LINE('',#555,#109);
#90=LINE('',#557,#110);
#91=LINE('',#559,#111);
#92=LINE('',#560,#112);
#93=LINE('',#564,#113);
#94=LINE('',#566,#114);
#95=LINE('',#568,#115);
#96=LINE('',#569,#116);
#97=LINE('',#571,#117);
#98=LINE('',#572,#118);
#99=LINE('',#574,#119);
#100=LINE('',#576,#120);
#101=VECTOR('',#397,1.325);
#102=VECTOR('',#406,1.325);
#103=VECTOR('',#415,1.325);
#104=VECTOR('',#424,1.325);
#105=VECTOR('',#433,1.325);
#106=VECTOR('',#442,1.325);
#107=VECTOR('',#451,1.325);
#108=VECTOR('',#460,1.325);
#109=VECTOR('',#465,10.);
#110=VECTOR('',#466,10.);
#111=VECTOR('',#467,10.);
#112=VECTOR('',#468,10.);
#113=VECTOR('',#471,10.);
#114=VECTOR('',#472,10.);
#115=VECTOR('',#473,10.);
#116=VECTOR('',#474,10.);
#117=VECTOR('',#477,10.);
#118=VECTOR('',#478,10.);
#119=VECTOR('',#481,10.);
#120=VECTOR('',#484,10.);
#121=CIRCLE('',#352,1.325);
#122=CIRCLE('',#353,1.325);
#123=CIRCLE('',#354,1.325);
#124=CIRCLE('',#356,1.325);
#125=CIRCLE('',#357,1.325);
#126=CIRCLE('',#358,1.325);
#127=CIRCLE('',#360,1.325);
#128=CIRCLE('',#361,1.325);
#129=CIRCLE('',#362,1.325);
#130=CIRCLE('',#364,1.325);
#131=CIRCLE('',#365,1.325);
#132=CIRCLE('',#366,1.325);
#133=CIRCLE('',#368,1.325);
#134=CIRCLE('',#369,1.325);
#135=CIRCLE('',#370,1.325);
#136=CIRCLE('',#372,1.325);
#137=CIRCLE('',#373,1.325);
#138=CIRCLE('',#374,1.325);
#139=CIRCLE('',#376,1.325);
#140=CIRCLE('',#377,1.325);
#141=CIRCLE('',#378,1.325);
#142=CIRCLE('',#380,1.325);
#143=CIRCLE('',#381,1.325);
#144=CIRCLE('',#382,1.325);
#145=VERTEX_POINT('',#489);
#146=VERTEX_POINT('',#490);
#147=VERTEX_POINT('',#493);
#148=VERTEX_POINT('',#497);
#149=VERTEX_POINT('',#498);
#150=VERTEX_POINT('',#501);
#151=VERTEX_POINT('',#505);
#152=VERTEX_POINT('',#506);
#153=VERTEX_POINT('',#509);
#154=VERTEX_POINT('',#513);
#155=VERTEX_POINT('',#514);
#156=VERTEX_POINT('',#517);
#157=VERTEX_POINT('',#521);
#158=VERTEX_POINT('',#522);
#159=VERTEX_POINT('',#525);
#160=VERTEX_POINT('',#529);
#161=VERTEX_POINT('',#530);
#162=VERTEX_POINT('',#533);
#163=VERTEX_POINT('',#537);
#164=VERTEX_POINT('',#538);
#165=VERTEX_POINT('',#541);
#166=VERTEX_POINT('',#545);
#167=VERTEX_POINT('',#546);
#168=VERTEX_POINT('',#549);
#169=VERTEX_POINT('',#553);
#170=VERTEX_POINT('',#554);
#171=VERTEX_POINT('',#556);
#172=VERTEX_POINT('',#558);
#173=VERTEX_POINT('',#562);
#174=VERTEX_POINT('',#563);
#175=VERTEX_POINT('',#565);
#176=VERTEX_POINT('',#567);
#177=EDGE_CURVE('',#145,#146,#121,.T.);
#178=EDGE_CURVE('',#146,#145,#122,.T.);
#179=EDGE_CURVE('',#146,#147,#81,.T.);
#180=EDGE_CURVE('',#147,#147,#123,.T.);
#181=EDGE_CURVE('',#148,#149,#124,.T.);
#182=EDGE_CURVE('',#149,#148,#125,.T.);
#183=EDGE_CURVE('',#149,#150,#82,.T.);
#184=EDGE_CURVE('',#150,#150,#126,.T.);
#185=EDGE_CURVE('',#151,#152,#127,.T.);
#186=EDGE_CURVE('',#152,#151,#128,.T.);
#187=EDGE_CURVE('',#152,#153,#83,.T.);
#188=EDGE_CURVE('',#153,#153,#129,.T.);
#189=EDGE_CURVE('',#154,#155,#130,.T.);
#190=EDGE_CURVE('',#155,#154,#131,.T.);
#191=EDGE_CURVE('',#155,#156,#84,.T.);
#192=EDGE_CURVE('',#156,#156,#132,.T.);
#193=EDGE_CURVE('',#157,#158,#133,.T.);
#194=EDGE_CURVE('',#158,#157,#134,.T.);
#195=EDGE_CURVE('',#158,#159,#85,.T.);
#196=EDGE_CURVE('',#159,#159,#135,.T.);
#197=EDGE_CURVE('',#160,#161,#136,.T.);
#198=EDGE_CURVE('',#161,#160,#137,.T.);
#199=EDGE_CURVE('',#161,#162,#86,.T.);
#200=EDGE_CURVE('',#162,#162,#138,.T.);
#201=EDGE_CURVE('',#163,#164,#139,.T.);
#202=EDGE_CURVE('',#164,#163,#140,.T.);
#203=EDGE_CURVE('',#164,#165,#87,.T.);
#204=EDGE_CURVE('',#165,#165,#141,.T.);
#205=EDGE_CURVE('',#166,#167,#142,.T.);
#206=EDGE_CURVE('',#167,#166,#143,.T.);
#207=EDGE_CURVE('',#167,#168,#88,.T.);
#208=EDGE_CURVE('',#168,#168,#144,.T.);
#209=EDGE_CURVE('',#169,#170,#89,.T.);
#210=EDGE_CURVE('',#170,#171,#90,.T.);
#211=EDGE_CURVE('',#171,#172,#91,.T.);
#212=EDGE_CURVE('',#172,#169,#92,.T.);
#213=EDGE_CURVE('',#173,#174,#93,.T.);
#214=EDGE_CURVE('',#175,#173,#94,.T.);
#215=EDGE_CURVE('',#176,#175,#95,.T.);
#216=EDGE_CURVE('',#174,#176,#96,.T.);
#217=EDGE_CURVE('',#174,#170,#97,.T.);
#218=EDGE_CURVE('',#173,#169,#98,.T.);
#219=EDGE_CURVE('',#176,#171,#99,.T.);
#220=EDGE_CURVE('',#175,#172,#100,.T.);
#221=ORIENTED_EDGE('',*,*,#177,.F.);
#222=ORIENTED_EDGE('',*,*,#178,.F.);
#223=ORIENTED_EDGE('',*,*,#179,.T.);
#224=ORIENTED_EDGE('',*,*,#180,.F.);
#225=ORIENTED_EDGE('',*,*,#179,.F.);
#226=ORIENTED_EDGE('',*,*,#181,.F.);
#227=ORIENTED_EDGE('',*,*,#182,.F.);
#228=ORIENTED_EDGE('',*,*,#183,.T.);
#229=ORIENTED_EDGE('',*,*,#184,.F.);
#230=ORIENTED_EDGE('',*,*,#183,.F.);
#231=ORIENTED_EDGE('',*,*,#185,.F.);
#232=ORIENTED_EDGE('',*,*,#186,.F.);
#233=ORIENTED_EDGE('',*,*,#187,.T.);
#234=ORIENTED_EDGE('',*,*,#188,.F.);
#235=ORIENTED_EDGE('',*,*,#187,.F.);
#236=ORIENTED_EDGE('',*,*,#189,.F.);
#237=ORIENTED_EDGE('',*,*,#190,.F.);
#238=ORIENTED_EDGE('',*,*,#191,.T.);
#239=ORIENTED_EDGE('',*,*,#192,.F.);
#240=ORIENTED_EDGE('',*,*,#191,.F.);
#241=ORIENTED_EDGE('',*,*,#193,.F.);
#242=ORIENTED_EDGE('',*,*,#194,.F.);
#243=ORIENTED_EDGE('',*,*,#195,.T.);
#244=ORIENTED_EDGE('',*,*,#196,.F.);
#245=ORIENTED_EDGE('',*,*,#195,.F.);
#246=ORIENTED_EDGE('',*,*,#197,.F.);
#247=ORIENTED_EDGE('',*,*,#198,.F.);
#248=ORIENTED_EDGE('',*,*,#199,.T.);
#249=ORIENTED_EDGE('',*,*,#200,.F.);
#250=ORIENTED_EDGE('',*,*,#199,.F.);
#251=ORIENTED_EDGE('',*,*,#201,.F.);
#252=ORIENTED_EDGE('',*,*,#202,.F.);
#253=ORIENTED_EDGE('',*,*,#203,.T.);
#254=ORIENTED_EDGE('',*,*,#204,.F.);
#255=ORIENTED_EDGE('',*,*,#203,.F.);
#256=ORIENTED_EDGE('',*,*,#205,.F.);
#257=ORIENTED_EDGE('',*,*,#206,.F.);
#258=ORIENTED_EDGE('',*,*,#207,.T.);
#259=ORIENTED_EDGE('',*,*,#208,.F.);
#260=ORIENTED_EDGE('',*,*,#207,.F.);
#261=ORIENTED_EDGE('',*,*,#209,.T.);
#262=ORIENTED_EDGE('',*,*,#210,.T.);
#263=ORIENTED_EDGE('',*,*,#211,.T.);
#264=ORIENTED_EDGE('',*,*,#212,.T.);
#265=ORIENTED_EDGE('',*,*,#180,.T.);
#266=ORIENTED_EDGE('',*,*,#184,.T.);
#267=ORIENTED_EDGE('',*,*,#188,.T.);
#268=ORIENTED_EDGE('',*,*,#192,.T.);
#269=ORIENTED_EDGE('',*,*,#196,.T.);
#270=ORIENTED_EDGE('',*,*,#200,.T.);
#271=ORIENTED_EDGE('',*,*,#204,.T.);
#272=ORIENTED_EDGE('',*,*,#208,.T.);
#273=ORIENTED_EDGE('',*,*,#213,.F.);
#274=ORIENTED_EDGE('',*,*,#214,.F.);
#275=ORIENTED_EDGE('',*,*,#215,.F.);
#276=ORIENTED_EDGE('',*,*,#216,.F.);
#277=ORIENTED_EDGE('',*,*,#177,.T.);
#278=ORIENTED_EDGE('',*,*,#178,.T.);
#279=ORIENTED_EDGE('',*,*,#181,.T.);
#280=ORIENTED_EDGE('',*,*,#182,.T.);
#281=ORIENTED_EDGE('',*,*,#185,.T.);
#282=ORIENTED_EDGE('',*,*,#186,.T.);
#283=ORIENTED_EDGE('',*,*,#189,.T.);
#284=ORIENTED_EDGE('',*,*,#190,.T.);
#285=ORIENTED_EDGE('',*,*,#193,.T.);
#286=ORIENTED_EDGE('',*,*,#194,.T.);
#287=ORIENTED_EDGE('',*,*,#197,.T.);
#288=ORIENTED_EDGE('',*,*,#198,.T.);
#289=ORIENTED_EDGE('',*,*,#201,.T.);
#290=ORIENTED_EDGE('',*,*,#202,.T.);
#291=ORIENTED_EDGE('',*,*,#205,.T.);
#292=ORIENTED_EDGE('',*,*,#206,.T.);
#293=ORIENTED_EDGE('',*,*,#213,.T.);
#294=ORIENTED_EDGE('',*,*,#217,.T.);
#295=ORIENTED_EDGE('',*,*,#209,.F.);
#296=ORIENTED_EDGE('',*,*,#218,.F.);
#297=ORIENTED_EDGE('',*,*,#216,.T.);
#298=ORIENTED_EDGE('',*,*,#219,.T.);
#299=ORIENTED_EDGE('',*,*,#210,.F.);
#300=ORIENTED_EDGE('',*,*,#217,.F.);
#301=ORIENTED_EDGE('',*,*,#215,.T.);
#302=ORIENTED_EDGE('',*,*,#220,.T.);
#303=ORIENTED_EDGE('',*,*,#211,.F.);
#304=ORIENTED_EDGE('',*,*,#219,.F.);
#305=ORIENTED_EDGE('',*,*,#214,.T.);
#306=ORIENTED_EDGE('',*,*,#218,.T.);
#307=ORIENTED_EDGE('',*,*,#212,.F.);
#308=ORIENTED_EDGE('',*,*,#220,.F.);
#309=CYLINDRICAL_SURFACE('',#351,1.325);
#310=CYLINDRICAL_SURFACE('',#355,1.325);
#311=CYLINDRICAL_SURFACE('',#359,1.325);
#312=CYLINDRICAL_SURFACE('',#363,1.325);
#313=CYLINDRICAL_SURFACE('',#367,1.325);
#314=CYLINDRICAL_SURFACE('',#371,1.325);
#315=CYLINDRICAL_SURFACE('',#375,1.325);
#316=CYLINDRICAL_SURFACE('',#379,1.325);
#317=ADVANCED_FACE('',(#37),#309,.F.);
#318=ADVANCED_FACE('',(#38),#310,.F.);
#319=ADVANCED_FACE('',(#39),#311,.F.);
#320=ADVANCED_FACE('',(#40),#312,.F.);
#321=ADVANCED_FACE('',(#41),#313,.F.);
#322=ADVANCED_FACE('',(#42),#314,.F.);
#323=ADVANCED_FACE('',(#43),#315,.F.);
#324=ADVANCED_FACE('',(#44),#316,.F.);
#325=ADVANCED_FACE('',(#45,#15,#16,#17,#18,#19,#20,#21,#22),#31,.T.);
#326=ADVANCED_FACE('',(#46,#23,#24,#25,#26,#27,#28,#29,#30),#32,.F.);
#327=ADVANCED_FACE('',(#47),#33,.T.);
#328=ADVANCED_FACE('',(#48),#34,.T.);
#329=ADVANCED_FACE('',(#49),#35,.T.);
#330=ADVANCED_FACE('',(#50),#36,.T.);
#331=CLOSED_SHELL('',(#317,#318,#319,#320,#321,#322,#323,#324,#325,#326,
#327,#328,#329,#330));
#332=DERIVED_UNIT_ELEMENT(#334,1.);
#333=DERIVED_UNIT_ELEMENT(#583,3.);
#334=(
MASS_UNIT()
NAMED_UNIT(*)
SI_UNIT($,.GRAM.)
);
#335=DERIVED_UNIT((#332,#333));
#336=MEASURE_REPRESENTATION_ITEM('density measure',
POSITIVE_RATIO_MEASURE(1.06),#335);
#337=PROPERTY_DEFINITION_REPRESENTATION(#342,#339);
#338=PROPERTY_DEFINITION_REPRESENTATION(#343,#340);
#339=REPRESENTATION('material name',(#341),#580);
#340=REPRESENTATION('density',(#336),#580);
#341=DESCRIPTIVE_REPRESENTATION_ITEM('ABS Plastic','ABS Plastic');
#342=PROPERTY_DEFINITION('material property','material name',#590);
#343=PROPERTY_DEFINITION('material property','density of part',#590);
#344=DATE_TIME_ROLE('creation_date');
#345=APPLIED_DATE_AND_TIME_ASSIGNMENT(#346,#344,(#590));
#346=DATE_AND_TIME(#347,#348);
#347=CALENDAR_DATE(2022,3,5);
#348=LOCAL_TIME(0,0,0.,#349);
#349=COORDINATED_UNIVERSAL_TIME_OFFSET(0,0,.BEHIND.);
#350=AXIS2_PLACEMENT_3D('placement',#487,#389,#390);
#351=AXIS2_PLACEMENT_3D('',#488,#391,#392);
#352=AXIS2_PLACEMENT_3D('',#491,#393,#394);
#353=AXIS2_PLACEMENT_3D('',#492,#395,#396);
#354=AXIS2_PLACEMENT_3D('',#495,#398,#399);
#355=AXIS2_PLACEMENT_3D('',#496,#400,#401);
#356=AXIS2_PLACEMENT_3D('',#499,#402,#403);
#357=AXIS2_PLACEMENT_3D('',#500,#404,#405);
#358=AXIS2_PLACEMENT_3D('',#503,#407,#408);
#359=AXIS2_PLACEMENT_3D('',#504,#409,#410);
#360=AXIS2_PLACEMENT_3D('',#507,#411,#412);
#361=AXIS2_PLACEMENT_3D('',#508,#413,#414);
#362=AXIS2_PLACEMENT_3D('',#511,#416,#417);
#363=AXIS2_PLACEMENT_3D('',#512,#418,#419);
#364=AXIS2_PLACEMENT_3D('',#515,#420,#421);
#365=AXIS2_PLACEMENT_3D('',#516,#422,#423);
#366=AXIS2_PLACEMENT_3D('',#519,#425,#426);
#367=AXIS2_PLACEMENT_3D('',#520,#427,#428);
#368=AXIS2_PLACEMENT_3D('',#523,#429,#430);
#369=AXIS2_PLACEMENT_3D('',#524,#431,#432);
#370=AXIS2_PLACEMENT_3D('',#527,#434,#435);
#371=AXIS2_PLACEMENT_3D('',#528,#436,#437);
#372=AXIS2_PLACEMENT_3D('',#531,#438,#439);
#373=AXIS2_PLACEMENT_3D('',#532,#440,#441);
#374=AXIS2_PLACEMENT_3D('',#535,#443,#444);
#375=AXIS2_PLACEMENT_3D('',#536,#445,#446);
#376=AXIS2_PLACEMENT_3D('',#539,#447,#448);
#377=AXIS2_PLACEMENT_3D('',#540,#449,#450);
#378=AXIS2_PLACEMENT_3D('',#543,#452,#453);
#379=AXIS2_PLACEMENT_3D('',#544,#454,#455);
#380=AXIS2_PLACEMENT_3D('',#547,#456,#457);
#381=AXIS2_PLACEMENT_3D('',#548,#458,#459);
#382=AXIS2_PLACEMENT_3D('',#551,#461,#462);
#383=AXIS2_PLACEMENT_3D('',#552,#463,#464);
#384=AXIS2_PLACEMENT_3D('',#561,#469,#470);
#385=AXIS2_PLACEMENT_3D('',#570,#475,#476);
#386=AXIS2_PLACEMENT_3D('',#573,#479,#480);
#387=AXIS2_PLACEMENT_3D('',#575,#482,#483);
#388=AXIS2_PLACEMENT_3D('',#577,#485,#486);
#389=DIRECTION('axis',(0.,0.,1.));
#390=DIRECTION('refdir',(1.,0.,0.));
#391=DIRECTION('center_axis',(0.,1.,0.));
#392=DIRECTION('ref_axis',(-1.,0.,0.));
#393=DIRECTION('center_axis',(0.,1.,0.));
#394=DIRECTION('ref_axis',(-1.,0.,0.));
#395=DIRECTION('center_axis',(0.,1.,0.));
#396=DIRECTION('ref_axis',(-1.,0.,0.));
#397=DIRECTION('',(0.,1.,0.));
#398=DIRECTION('center_axis',(3.33444587386447E-31,-1.,-7.77086861859505E-32));
#399=DIRECTION('ref_axis',(-1.,0.,0.));
#400=DIRECTION('center_axis',(0.,1.,0.));
#401=DIRECTION('ref_axis',(-1.,0.,0.));
#402=DIRECTION('center_axis',(0.,1.,0.));
#403=DIRECTION('ref_axis',(-1.,0.,0.));
#404=DIRECTION('center_axis',(0.,1.,0.));
#405=DIRECTION('ref_axis',(-1.,0.,0.));
#406=DIRECTION('',(0.,1.,0.));
#407=DIRECTION('center_axis',(3.33444587386447E-31,-1.,-7.77086861859505E-32));
#408=DIRECTION('ref_axis',(-1.,0.,0.));
#409=DIRECTION('center_axis',(0.,1.,0.));
#410=DIRECTION('ref_axis',(-1.,0.,0.));
#411=DIRECTION('center_axis',(0.,1.,0.));
#412=DIRECTION('ref_axis',(-1.,0.,0.));
#413=DIRECTION('center_axis',(0.,1.,0.));
#414=DIRECTION('ref_axis',(-1.,0.,0.));
#415=DIRECTION('',(0.,1.,0.));
#416=DIRECTION('center_axis',(3.33444587386447E-31,-1.,-7.77086861859505E-32));
#417=DIRECTION('ref_axis',(-1.,0.,0.));
#418=DIRECTION('center_axis',(0.,1.,0.));
#419=DIRECTION('ref_axis',(-1.,0.,0.));
#420=DIRECTION('center_axis',(0.,1.,0.));
#421=DIRECTION('ref_axis',(-1.,0.,0.));
#422=DIRECTION('center_axis',(0.,1.,0.));
#423=DIRECTION('ref_axis',(-1.,0.,0.));
#424=DIRECTION('',(0.,1.,0.));
#425=DIRECTION('center_axis',(3.33444587386447E-31,-1.,-7.77086861859505E-32));
#426=DIRECTION('ref_axis',(-1.,0.,0.));
#427=DIRECTION('center_axis',(0.,1.,0.));
#428=DIRECTION('ref_axis',(-1.,0.,0.));
#429=DIRECTION('center_axis',(0.,1.,0.));
#430=DIRECTION('ref_axis',(-1.,0.,0.));
#431=DIRECTION('center_axis',(0.,1.,0.));
#432=DIRECTION('ref_axis',(-1.,0.,0.));
#433=DIRECTION('',(0.,1.,0.));
#434=DIRECTION('center_axis',(3.33444587386447E-31,-1.,-7.77086861859505E-32));
#435=DIRECTION('ref_axis',(-1.,0.,0.));
#436=DIRECTION('center_axis',(0.,1.,0.));
#437=DIRECTION('ref_axis',(-1.,0.,0.));
#438=DIRECTION('center_axis',(0.,1.,0.));
#439=DIRECTION('ref_axis',(-1.,0.,0.));
#440=DIRECTION('center_axis',(0.,1.,0.));
#441=DIRECTION('ref_axis',(-1.,0.,0.));
#442=DIRECTION('',(0.,1.,0.));
#443=DIRECTION('center_axis',(3.33444587386447E-31,-1.,-7.77086861859505E-32));
#444=DIRECTION('ref_axis',(-1.,0.,0.));
#445=DIRECTION('center_axis',(0.,1.,0.));
#446=DIRECTION('ref_axis',(-1.,0.,0.));
#447=DIRECTION('center_axis',(0.,1.,0.));
#448=DIRECTION('ref_axis',(-1.,0.,0.));
#449=DIRECTION('center_axis',(0.,1.,0.));
#450=DIRECTION('ref_axis',(-1.,0.,0.));
#451=DIRECTION('',(0.,1.,0.));
#452=DIRECTION('center_axis',(3.33444587386447E-31,-1.,-7.77086861859505E-32));
#453=DIRECTION('ref_axis',(-1.,0.,0.));
#454=DIRECTION('center_axis',(0.,1.,0.));
#455=DIRECTION('ref_axis',(-1.,0.,0.));
#456=DIRECTION('center_axis',(0.,1.,0.));
#457=DIRECTION('ref_axis',(-1.,0.,0.));
#458=DIRECTION('center_axis',(0.,1.,0.));
#459=DIRECTION('ref_axis',(-1.,0.,0.));
#460=DIRECTION('',(0.,1.,0.));
#461=DIRECTION('center_axis',(3.33444587386447E-31,-1.,-7.77086861859505E-32));
#462=DIRECTION('ref_axis',(-1.,0.,0.));
#463=DIRECTION('center_axis',(-3.33444587386447E-31,1.,7.77086861859505E-32));
#464=DIRECTION('ref_axis',(0.,-7.77086861859505E-32,1.));
#465=DIRECTION('',(1.,0.,-6.93889390390723E-17));
#466=DIRECTION('',(-3.5527136788005E-16,0.,-1.));
#467=DIRECTION('',(-1.,0.,0.));
#468=DIRECTION('',(4.32986979603811E-16,0.,1.));
#469=DIRECTION('center_axis',(0.,1.,0.));
#470=DIRECTION('ref_axis',(0.,0.,1.));
#471=DIRECTION('',(1.,0.,-6.93889390390723E-17));
#472=DIRECTION('',(4.27435864480685E-16,0.,1.));
#473=DIRECTION('',(-1.,0.,5.55111512312578E-16));
#474=DIRECTION('',(-3.5527136788005E-16,0.,-1.));
#475=DIRECTION('center_axis',(6.93889390390723E-17,-7.26767470280481E-32,
1.));
#476=DIRECTION('ref_axis',(1.,0.,-6.93889390390723E-17));
#477=DIRECTION('',(1.09202264717229E-15,1.,0.));
#478=DIRECTION('',(1.16027406262055E-15,1.,0.));
#479=DIRECTION('center_axis',(1.,-1.11022302462516E-15,-3.5527136788005E-16));
#480=DIRECTION('ref_axis',(-3.5527136788005E-16,0.,-1.));
#481=DIRECTION('',(1.09202264717229E-15,1.,1.45603019622971E-15));
#482=DIRECTION('center_axis',(-5.55111512312578E-16,6.97696771469261E-31,
-1.));
#483=DIRECTION('ref_axis',(-1.,0.,5.55111512312578E-16));
#484=DIRECTION('',(1.13752359080446E-15,1.,0.));
#485=DIRECTION('center_axis',(-1.,1.13797860024079E-15,4.38538094726937E-16));
#486=DIRECTION('ref_axis',(4.38538094726937E-16,0.,1.));
#487=CARTESIAN_POINT('',(0.,0.,0.));
#488=CARTESIAN_POINT('Origin',(9.99999999999999,0.,-7.5));
#489=CARTESIAN_POINT('',(8.67499999999999,0.,-7.5));
#490=CARTESIAN_POINT('',(11.325,0.,-7.5));
#491=CARTESIAN_POINT('Origin',(9.99999999999999,0.,-7.5));
#492=CARTESIAN_POINT('Origin',(9.99999999999999,0.,-7.5));
#493=CARTESIAN_POINT('',(11.325,6.1,-7.5));
#494=CARTESIAN_POINT('',(11.325,0.,-7.5));
#495=CARTESIAN_POINT('Origin',(9.99999999999999,6.1,-7.5));
#496=CARTESIAN_POINT('Origin',(3.99999999999999,0.,-25.5));
#497=CARTESIAN_POINT('',(2.67499999999999,0.,-25.5));
#498=CARTESIAN_POINT('',(5.32499999999999,0.,-25.5));
#499=CARTESIAN_POINT('Origin',(3.99999999999999,0.,-25.5));
#500=CARTESIAN_POINT('Origin',(3.99999999999999,0.,-25.5));
#501=CARTESIAN_POINT('',(5.32499999999999,6.1,-25.5));
#502=CARTESIAN_POINT('',(5.32499999999999,0.,-25.5));
#503=CARTESIAN_POINT('Origin',(3.99999999999999,6.1,-25.5));
#504=CARTESIAN_POINT('Origin',(13.,0.,-16.5));
#505=CARTESIAN_POINT('',(11.675,0.,-16.5));
#506=CARTESIAN_POINT('',(14.325,0.,-16.5));
#507=CARTESIAN_POINT('Origin',(13.,0.,-16.5));
#508=CARTESIAN_POINT('Origin',(13.,0.,-16.5));
#509=CARTESIAN_POINT('',(14.325,6.1,-16.5));
#510=CARTESIAN_POINT('',(14.325,0.,-16.5));
#511=CARTESIAN_POINT('Origin',(13.,6.1,-16.5));
#512=CARTESIAN_POINT('Origin',(6.99999999999999,0.,-22.5));
#513=CARTESIAN_POINT('',(5.67499999999999,0.,-22.5));
#514=CARTESIAN_POINT('',(8.32499999999999,0.,-22.5));
#515=CARTESIAN_POINT('Origin',(6.99999999999999,0.,-22.5));
#516=CARTESIAN_POINT('Origin',(6.99999999999999,0.,-22.5));
#517=CARTESIAN_POINT('',(8.32499999999999,6.1,-22.5));
#518=CARTESIAN_POINT('',(8.32499999999999,0.,-22.5));
#519=CARTESIAN_POINT('Origin',(6.99999999999999,6.1,-22.5));
#520=CARTESIAN_POINT('Origin',(4.,0.,-7.5));
#521=CARTESIAN_POINT('',(2.675,0.,-7.5));
#522=CARTESIAN_POINT('',(5.325,0.,-7.5));
#523=CARTESIAN_POINT('Origin',(4.,0.,-7.5));
#524=CARTESIAN_POINT('Origin',(4.,0.,-7.5));
#525=CARTESIAN_POINT('',(5.325,6.1,-7.5));
#526=CARTESIAN_POINT('',(5.325,0.,-7.5));
#527=CARTESIAN_POINT('Origin',(4.,6.1,-7.5));
#528=CARTESIAN_POINT('Origin',(9.99999999999999,0.,-25.5));
#529=CARTESIAN_POINT('',(8.67499999999999,0.,-25.5));
#530=CARTESIAN_POINT('',(11.325,0.,-25.5));
#531=CARTESIAN_POINT('Origin',(9.99999999999999,0.,-25.5));
#532=CARTESIAN_POINT('Origin',(9.99999999999999,0.,-25.5));
#533=CARTESIAN_POINT('',(11.325,6.1,-25.5));
#534=CARTESIAN_POINT('',(11.325,0.,-25.5));
#535=CARTESIAN_POINT('Origin',(9.99999999999999,6.1,-25.5));
#536=CARTESIAN_POINT('Origin',(0.999999999999993,0.,-16.5));
#537=CARTESIAN_POINT('',(-0.325000000000007,0.,-16.5));
#538=CARTESIAN_POINT('',(2.32499999999999,0.,-16.5));
#539=CARTESIAN_POINT('Origin',(0.999999999999993,0.,-16.5));
#540=CARTESIAN_POINT('Origin',(0.999999999999993,0.,-16.5));
#541=CARTESIAN_POINT('',(2.32499999999999,6.1,-16.5));
#542=CARTESIAN_POINT('',(2.32499999999999,0.,-16.5));
#543=CARTESIAN_POINT('Origin',(0.999999999999993,6.1,-16.5));
#544=CARTESIAN_POINT('Origin',(6.99999999999999,0.,-10.5));
#545=CARTESIAN_POINT('',(5.67499999999999,0.,-10.5));
#546=CARTESIAN_POINT('',(8.32499999999999,0.,-10.5));
#547=CARTESIAN_POINT('Origin',(6.99999999999999,0.,-10.5));
#548=CARTESIAN_POINT('Origin',(6.99999999999999,0.,-10.5));
#549=CARTESIAN_POINT('',(8.32499999999999,6.1,-10.5));
#550=CARTESIAN_POINT('',(8.32499999999999,0.,-10.5));
#551=CARTESIAN_POINT('Origin',(6.99999999999999,6.1,-10.5));
#552=CARTESIAN_POINT('Origin',(7.,6.1,-16.5));
#553=CARTESIAN_POINT('',(-0.999999999999995,6.1,-4.));
#554=CARTESIAN_POINT('',(15.,6.1,-4.));
#555=CARTESIAN_POINT('',(-0.999999999999995,6.1,-4.));
#556=CARTESIAN_POINT('',(15.,6.1,-29.));
#557=CARTESIAN_POINT('',(15.,6.1,-4.));
#558=CARTESIAN_POINT('',(-1.00000000000001,6.1,-29.));
#559=CARTESIAN_POINT('',(15.,6.1,-29.));
#560=CARTESIAN_POINT('',(-1.00000000000001,6.1,-29.));
#561=CARTESIAN_POINT('Origin',(6.99999999999999,0.,-16.5));
#562=CARTESIAN_POINT('',(-1.,0.,-4.));
#563=CARTESIAN_POINT('',(15.,0.,-4.));
#564=CARTESIAN_POINT('',(-1.,0.,-4.));
#565=CARTESIAN_POINT('',(-1.00000000000001,0.,-29.));
#566=CARTESIAN_POINT('',(-1.00000000000001,0.,-29.));
#567=CARTESIAN_POINT('',(15.,0.,-29.));
#568=CARTESIAN_POINT('',(15.,0.,-29.));
#569=CARTESIAN_POINT('',(15.,0.,-4.));
#570=CARTESIAN_POINT('Origin',(-1.,0.,-4.));
#571=CARTESIAN_POINT('',(15.,0.,-4.));
#572=CARTESIAN_POINT('',(-1.,0.,-4.));
#573=CARTESIAN_POINT('Origin',(15.,0.,-4.));
#574=CARTESIAN_POINT('',(15.,0.,-29.));
#575=CARTESIAN_POINT('Origin',(15.,0.,-29.));
#576=CARTESIAN_POINT('',(-1.00000000000001,0.,-29.));
#577=CARTESIAN_POINT('Origin',(-1.00000000000001,0.,-29.));
#578=UNCERTAINTY_MEASURE_WITH_UNIT(LENGTH_MEASURE(0.01),#582,
'DISTANCE_ACCURACY_VALUE',
'Maximum model space distance between geometric entities at asserted c
onnectivities');
#579=UNCERTAINTY_MEASURE_WITH_UNIT(LENGTH_MEASURE(0.01),#582,
'DISTANCE_ACCURACY_VALUE',
'Maximum model space distance between geometric entities at asserted c
onnectivities');
#580=(
GEOMETRIC_REPRESENTATION_CONTEXT(3)
GLOBAL_UNCERTAINTY_ASSIGNED_CONTEXT((#578))
GLOBAL_UNIT_ASSIGNED_CONTEXT((#582,#584,#585))
REPRESENTATION_CONTEXT('','3D')
);
#581=(
GEOMETRIC_REPRESENTATION_CONTEXT(3)
GLOBAL_UNCERTAINTY_ASSIGNED_CONTEXT((#579))
GLOBAL_UNIT_ASSIGNED_CONTEXT((#582,#584,#585))
REPRESENTATION_CONTEXT('','3D')
);
#582=(
LENGTH_UNIT()
NAMED_UNIT(*)
SI_UNIT(.MILLI.,.METRE.)
);
#583=(
LENGTH_UNIT()
NAMED_UNIT(*)
SI_UNIT(.CENTI.,.METRE.)
);
#584=(
NAMED_UNIT(*)
PLANE_ANGLE_UNIT()
SI_UNIT($,.RADIAN.)
);
#585=(
NAMED_UNIT(*)
SI_UNIT($,.STERADIAN.)
SOLID_ANGLE_UNIT()
);
#586=SHAPE_DEFINITION_REPRESENTATION(#587,#588);
#587=PRODUCT_DEFINITION_SHAPE('',$,#590);
#588=SHAPE_REPRESENTATION('',(#350),#580);
#589=PRODUCT_DEFINITION_CONTEXT('part definition',#594,'design');
#590=PRODUCT_DEFINITION('finger_spacer_6mm','dip_spacer',#591,#589);
#591=PRODUCT_DEFINITION_FORMATION('',$,#596);
#592=PRODUCT_RELATED_PRODUCT_CATEGORY('dip_spacer','dip_spacer',(#596));
#593=APPLICATION_PROTOCOL_DEFINITION('international standard',
'automotive_design',2009,#594);
#594=APPLICATION_CONTEXT(
'Core Data for Automotive Mechanical Design Process');
#595=PRODUCT_CONTEXT('part definition',#594,'mechanical');
#596=PRODUCT('finger_spacer_6mm','dip_spacer',$,(#595));
#597=PRESENTATION_STYLE_ASSIGNMENT((#598));
#598=SURFACE_STYLE_USAGE(.BOTH.,#601);
#599=SURFACE_STYLE_RENDERING_WITH_PROPERTIES($,#605,(#600));
#600=SURFACE_STYLE_TRANSPARENT(0.);
#601=SURFACE_SIDE_STYLE('',(#602,#599));
#602=SURFACE_STYLE_FILL_AREA(#603);
#603=FILL_AREA_STYLE('',(#604));
#604=FILL_AREA_STYLE_COLOUR('',#605);
#605=COLOUR_RGB('',0.92156862745098,0.92156862745098,0.92156862745098);
ENDSEC;
END-ISO-10303-21;
